SongBookMark Radcliffe Theme Tune

Highwire - The Theme From Dangerman, written by Astley

<A HREF="../sounds/dm.mid">Dangerman Theme</A> - Midi File

Dangerman MIDI File by Andrew Bond

Performed by The Bob Leaper Orchestra and available on the "This Is Cult Fiction" CD.

The Mark Radcliffe Theme Tune Guitar Tab:

Key:  / - slide
      ~ - vibrato
                                     Slide up from 4 to the 5th Fret
                                    and then back down to the 3rd fret
                                      (Only pick on the 4th fret)
                                                                /
Intro:                                                         /
E-----1-0--------|-----------------|----3-2---------|------------------|
B---------1~~~~~-|-1-2-1-2-1-------|--------3~~~~---|-3-4-3-4/5\3-1---3|
G----------------|------------0~~~-|-0--------------|---------------3--|
D--3-------------|-----------------|----------------|------------------|
A----------------|-----------------|----------------|------------------|
E----------------|-----------------|----------------|------------------|
 

Trumpet Solo at the End of the tune, just after the dead quick saxaphone
solo (Usually played at the end of the Program):
E---------------------------|-------------------------------|
B-0-1-0-1-0-1-0-1-0-1~~0----|-1-0-1/3-1-0------1-0----------|
G------------------------0~-|-------------2~~------2-0-2~~~~|
D---------------------------|-------------------------------|
A---------------------------|-------------------------------|
E---------------------------|-------------------------------|
 
                                                               
E-0-1-0-1-0-1-0-1-0-1~~0---|-1-0-1/3-1-0-----1-0-------3~~~~-3-3-3-3~~-|
B------------------------1-|-------------3-------3-1-3-----------------|
G--------------------------|-------------------------------------------|
D--------------------------|-------------------------------------------|
A--------------------------|-------------------------------------------|
E--------------------------|-------------------------------------------|


Main Theme:
E-----1-0--------|-----------------|----3-2---------|------------------|
B---------1~~~~~-|-1-2-1-2-1-------|--------3~~~~---|-3-4-3-4/5\3-1---3|
G----------------|------------0~~~-|-0--------------|---------------3--|
D--3-------------|-----------------|----------------|------------------|
A----------------|-----------------|----------------|------------------|
E----------------|-----------------|----------------|------------------|
                                                               
 
Decending Outro:
E-----------------|------------------|---------------|-----1--0--------|
B-3--2------------|------------------|---------------|-----------1~~~~~|
G-------3--2/3----|------------------|---------------|-----------------|
D---------------3-|-2----------------|---------------|-----------------|
A-----------------|----3--2----------|------3~~~~~~~-|-3---------------|
E-----------------|----------3--2--0-|----0----------|-----------------|


This is by no means accurate but it is good enough to have a mess around
with. If you have any comments or improvments on it then please send
them in. If you have tabbed any more of this great theme tune then
please send it in to me.

Main | Show Guide | Mark & Lard Story | Songbook | Shop
Early Afternoon Show | Breakfast Show
Graveyard Shift | | Hit The North
The Unofficial Mark Radcliffe & Lard Site
Copyright © 1997 - 2017 email

Hosted by 1&1